Skyrim Main Theme on Acoustic Guitar PART 1

(/) Slide Up  (\) Slide Down  (h) Hammer On  (p) Pull Off  (b) Bend (r) Release (v) Vibrato
E|--------------------------------------------------------------------------------------------------1-
B|------------------------0-1h-----------------------0-1h-------------------0-1h---0-1h-------------3-
G|--------------------------------------------------------------------------------------2-----------2-
D|--------------------------------------------------------------------------------------2-----------0-
A|--0-0-0-0-0-0-0-0-0-0-0------0-0-0-0-0-0-0-0-0-0-0------0-0-0-0-0-0-0-0-0------0------0-----------0-
E|----------------------------------------------------------------------------------------------------



E|----------5-----------3-----------------------1-----------5-----------7-----------------
B|----------6-----------1-----------1-----------3-----------6-----------8-----------------
G|----------7-----------0-----------2-----------2-----------7-----------9-----------------
D|----------7-----------2-----------2-----------0-----------7-----------9-----------------
A|----------5-----------3-----------0-----------------------5-----------7-----------------
E|----------------------------------------------------------------------7-----------------



E|--------------------------------------------------------------------------------0---0-3h---------
B|-----1r-0----1r-0----0-1h-3-1-0--------------------------0-1--------0r-1---1-3h-1---1---3-1-0----
G|----------2-------2--2----0-0-0-2--2r-0-2---2r-0-2--0-2h-0-0-0-2---2---2--------0-------0-0-0-2--
D|----------2-------2-------0-----2-------3--------0-0-----------2------------------------0-----3--
A|----------0-0-----0-0-----------0-------3----------------------0-0-----0-0------3-0-----------3--
E|--------------------------3------0------1-1--------------3------------------------------3-----1-1

E|---------------------------------
B|------------------------0-1------
G|-2r-0-2---2r-0-2---0-2h-0-0-0-2--
D|------3--------0-0------------2--
A|------3-----------------------0--
E|------1-1---------------3--------

http://www.guitartabcreator.com
Guitar Tab Creator is intended to store guitar tab created through the tool. It currently does not support in-line text editing. Any text you place in here will be lost. If you need to comment on your tab, please use the "Tab Notes" section located below.