Davids Riff Scales

(/) Slide Up  (\) Slide Down  (h) Hammer On  (p) Pull Off  (b) Bend (r) Release (v) Vibrato


E|--------------------------------9--11--
B|--------------------------7--9---------
G|--------------------8--9---------------
D|--------------6--9---------------------
A|--------6--7---------------------------
E|--5--9---------------------------------



E|--------------------------------------5--6--9--
B|--------------------------------6--8-----------
G|-----------------------6--7--9-----------------
D|-----------------6--7--------------------------
A|--------5--7--8--------------------------------
E|--5--6-----------------------------------------



E|--5--3-----------------------------------
B|--------5--3-----------------------------
G|--------------5--4-----------------------
D|--------------------7--5-----------------
A|--------------------------7--5-----------
E|--------------------------------8--7--5--



E|--------------------------------5--6--
B|-----------------------8--5-----------
G|--------------5--7-----------7--------
D|-----7--5-----------5-----------------
A|-----------7--------------------------
E|--5-----------------------------------
http://www.guitartabcreator.com
Guitar Tab Creator is intended to store guitar tab created through the tool. It currently does not support in-line text editing. Any text you place in here will be lost. If you need to comment on your tab, please use the "Tab Notes" section located below.