Wherever I may Roam #simplified

(/) Slide Up  (\) Slide Down  (h) Hammer On  (p) Pull Off  (b) Bend (r) Release (v) Vibrato

E|---------------------------------
B|-----5--5--6--5-----8--8--10--6--
G|---------------------------------
D|---------------------------------
A|--0--------------0---------------
E|---------------------------------



E|------------------------------------------------
B|-----5--5--6--5-----8--8--10--6--5--5--5--6--5--
G|------------------------------------------------
D|------------------------------------------------
A|--0--------------0------------------------------
E|------------------------------------------------
http://www.guitartabcreator.com
Guitar Tab Creator is intended to store guitar tab created through the tool. It currently does not support in-line text editing. Any text you place in here will be lost. If you need to comment on your tab, please use the "Tab Notes" section located below.