Whatever Love

(/) Slide Up  (\) Slide Down  (h) Hammer On  (p) Pull Off  (b) Bend (r) Release (v) Vibrato


E|--------4--------4--------4-----4-----
B|-----6--------6--------6-----------6--
G|--6--------5--------4--------3--------
D|--------------------------------------
A|--------------------------------------
E|--------------------------------------



E|--------------1--------
B|-----2--4--2-----4--2--
G|--2--------------------
D|-----------------------
A|-----------------------
E|-----------------------



E|--------------1--------------
B|-----2--4--2-----4--2--1-----
G|--2-----------------------1--
D|-----------------------------
A|-----------------------------
E|-----------------------------
http://www.guitartabcreator.com
Guitar Tab Creator is intended to store guitar tab created through the tool. It currently does not support in-line text editing. Any text you place in here will be lost. If you need to comment on your tab, please use the "Tab Notes" section located below.