Remember

(/) Slide Up  (\) Slide Down  (h) Hammer On  (p) Pull Off  (b) Bend (r) Release (v) Vibrato


E|-------------
B|-------------
G|-----------1r
D|--------2----
A|-----2-------
E|--0----------



E|----------------------------
B|----------------------------
G|--------------2--1----------
D|-----------2--------4--2----
A|--------2-----------------4r
E|--0--0----------------------



E|-------------
B|-------------
G|-----------2r
D|--------4----
A|-----4-------
E|--2----------



E|--
B|--
G|--
D|--
A|--
E|--
http://www.guitartabcreator.com
Guitar Tab Creator is intended to store guitar tab created through the tool. It currently does not support in-line text editing. Any text you place in here will be lost. If you need to comment on your tab, please use the "Tab Notes" section located below.