Jazz Bass 4

(/) Slide Up  (\) Slide Down  (h) Hammer On  (p) Pull Off  (b) Bend (r) Release (v) Vibrato


E|-----------------------------------------------------------------------------
B|-----------------------------------------------------------------------------
G|-----------------------------------------------------------------------------
D|--------9--9--------9--9--------9--------9--9--9--9--9--9--9--9--9--9--9--9--
A|-----------------------------------------------------------------------------
E|--7--7--------7--7--------7--7-----7--7--------------------------------------



E|------------------------------------------------------------------------------------------------------
B|------------------------------------------------------------------------------------------------------
G|----------------------------------------------------0-----7--9--10--9--7-----0-----7--9--10--9--7-----
D|--0-----7--9--10--9--7-----0-----7--9--10--9--7--------9------------------9-----9------------------9--
A|-----9------------------9-----9------------------9----------------------------------------------------
E|------------------------------------------------------------------------------------------------------



E|--------------------------
B|--------------------------
G|-----6--9--6--0-----7-----
D|--7--------------9-----9--
A|--------------------------
E|--------------------------
http://www.guitartabcreator.com
Guitar Tab Creator is intended to store guitar tab created through the tool. It currently does not support in-line text editing. Any text you place in here will be lost. If you need to comment on your tab, please use the "Tab Notes" section located below.