Acoustica

(/) Slide Up  (\) Slide Down  (h) Hammer On  (p) Pull Off  (b) Bend (r) Release (v) Vibrato


E|-----------0-----------------0-----------------0-----------------0--
B|--------0-----0-----------0-----0-----------0-----0-----------0-----
G|-----0-----------0-----0-----------0-----0-----------0-----0--------
D|--------------------------------------------------------------------
A|--------------------------------------------------------------------
E|--0-----------------0-----------------0-----------------0-----------



E|--7----------7--------7-----------5--7--8--7--5--7p5h7--------7-----------5--3--2--3--2--3p2h3--
B|-------------------0-----0---------------------------------0-----0------------------------------
G|----------------0-----------0---------------------------0-----------0---------------------------
D|------------------------------------------------------------------------------------------------
A|-------------------------------0---------------------------------------0------------------------
E|------------------------------------------------------------------------------------------------



E|--
B|--
G|--
D|--
A|--
E|--
http://www.guitartabcreator.com
Guitar Tab Creator is intended to store guitar tab created through the tool. It currently does not support in-line text editing. Any text you place in here will be lost. If you need to comment on your tab, please use the "Tab Notes" section located below.