Fire

(/) Slide Up  (\) Slide Down  (h) Hammer On  (p) Pull Off  (b) Bend (r) Release (v) Vibrato
E|-------------------------------------------------------------------
B|---0-0---0-0---0-0---0-0---0---0---0-0---0-0---0-0---0-0-------8---
G|-7-----5-----8-----7-----5---7---7-----5-----8-----7-----5h7p5-----
D|-------------------------------------------------------------------
A|-------------------------------------------------------------------
E|-------------------------------------------------------------------



E|-----------------------------------------------------------
B|-----0--0-----0--0-----0--0-----0--0-----0-----------------
G|--7--------5--------8--------7--------5-----7--8--8--5--7--
D|-----------------------------------------------8--8--5--7--
A|-----------------------------------------------------------
E|-----------------------------------------------------------



E|-------------------------------------------------------------------------
B|-------------------------------------------------------------------------
G|-------------------------------------------------------------------------
D|-10-----9-----12-----10-----9---10---10-----9-----12-----10-----9h10p9-7-
A|----0-0---0-0----0-0----0-0---0----0----0-0---0-0----0-0----0-0----------
E|-------------------------------------------------------------------------



E|---------------------------------------------------------------
B|---------------------------------------------------------------
G|-----------------------------------10-10-9h10p9-7h9p7----------
D|-10-----9-----12-----10-----9---10--------------------9h10p9-7-
A|----0-0---0-0----0-0----0-0---0--------------------------------
E|---------------------------------------------------------------
http://www.guitartabcreator.com
Guitar Tab Creator is intended to store guitar tab created through the tool. It currently does not support in-line text editing. Any text you place in here will be lost. If you need to comment on your tab, please use the "Tab Notes" section located below.