Take Me Away (Guitar)

(/) Slide Up  (\) Slide Down  (h) Hammer On  (p) Pull Off  (b) Bend (r) Release (v) Vibrato


E|---------------------------------------------------------
B|---------------------------------------------------------
G|---------------------------------------------------------
D|---------------------------------------------------------
A|---------------------------------------------------------
E|-4--4--4-2-4-6-7--7--7-6-6-4-2--2--2-6-6-7-9--9--9-2-2-2-



E|-------------------------------------------------
B|-------------------------------------------------
G|-11-11-11-11-13-13-13-13-14-14-14-14-16-16-16-16-
D|-------------------------------------------------
A|-9--9--9--9--11-11-11-11-12-12-12-12-14-14-14-14-
E|-0--0--0--0--0--0--0--0--0--0--0--0--0--0--0--0--



E|-----------------------
B|-----------------------
G|-6------2------9-----4-
D|-4------0------7-----2-
A|-4------0------7-----2-
E|-4------0------7-----2-



E|-------------------------------------------------
B|-------------------------------------------------
G|-11-11-11-11-11-11-11-11-11-11-11-11-11-11-11-11-
D|-------------------------------------------------
A|-9--9--9--9--9--9--9--9--9--9--9--9--9--9--9--9--
E|-0--0--0--0--0--0--0--0--0--0--0--0--0--0--0--0--



E|----------------------------------------------
B|----------------------------------------------
G|-13-13-13-13-13-13-13-13-14-14-14-14-16-16-16-
D|----------------------------------------------
A|-11-11-11-11-11-11-11-11-12-12-12-12-14-14-14-
E|-0--0--0--0--0--0--0--0--0--0--0--0--0--0--0--



E|-------
B|-------
G|-14-14-
D|-------
A|-12-12-
E|-0--0--
http://www.guitartabcreator.com
Guitar Tab Creator is intended to store guitar tab created through the tool. It currently does not support in-line text editing. Any text you place in here will be lost. If you need to comment on your tab, please use the "Tab Notes" section located below.