New One

(/) Slide Up  (\) Slide Down  (h) Hammer On  (p) Pull Off  (b) Bend (r) Release (v) Vibrato


E|--------------
B|--------------
G|--------------
D|--------------
A|--------------
E|-0--5b5-3-5-3-



E|---------------------------------------------------------------------
B|---------------------------------------------------------------------
G|---------------------------------------------------------------------
D|---------------------------------------------------------------------
A|---------------------------------------------------------------------
E|-3--3-3--3-3-3-12--12-12--12-12-12-7--7-7--7-7-7-5-5-5-5-15-15-15-15-



E|-----------------------------
B|-----------------------------
G|-----------------------------
D|-----------------------------
A|-----------------------------
E|-3--3-3--3-3-3-5--5-5--5-5-5-



E|------------------------------------------
B|------------------------------------------
G|------------------------------------------
D|------------------------------------------
A|------------------------------------------
E|-0-0-5h6-5-3--0-5h6-5-2--0-5h6-5-3--0-5h6-
http://www.guitartabcreator.com
Guitar Tab Creator is intended to store guitar tab created through the tool. It currently does not support in-line text editing. Any text you place in here will be lost. If you need to comment on your tab, please use the "Tab Notes" section located below.