Last Cascade (Bass)

(/) Slide Up  (\) Slide Down  (h) Hammer On  (p) Pull Off  (b) Bend (r) Release (v) Vibrato
E|----------------------------------------------------------------------
B|----------------------------------------------------------------------
G|----------------------------------------------------------------------
D|----------------------------------------------------------------------
A|-0-0-0-0-0-0-0-0-7-7-7-10-10-10-12-12-9-9-9-9-9-9-9-9-7-7-7-5-5-5-5-5-
E|----------------------------------------------------------------------



E|-----------------------------------------------------------------
B|-----------------------------------------------------------------
G|-----------------------------------------------------------------
D|-----------------------------------------------------------------
A|-0-0-0-0-0-0-0-0-7-7-7-7-7-7-7-7-------------------------9-7-6---
E|---------------------------------7-7-7-7-7-7-7-7-7-7-7-7-------7-



E|----------------------------------------------------------------------
B|----------------------------------------------------------------------
G|----------------------------------------------------------------------
D|----------------------------------------------------------------------
A|-0-0-0-0-0-0-0-0-7-7-7-7-7-7-7-7--------------------------------------
E|---------------------------------7-7-7-9-7-7-9-11-9-11-12-11-9-11-9-7-



E|------------------------------------------------------------------------------------------
B|------------------------------------------------------------------------------------------
G|------------------------------------------------------------------------------------------
D|------------------------------------------------------------------------------------------
A|---------------7------------------------------------------------7-------------------------
E|--5-------------------------7----------------------5-------------------------7------------
http://www.guitartabcreator.com
Guitar Tab Creator is intended to store guitar tab created through the tool. It currently does not support in-line text editing. Any text you place in here will be lost. If you need to comment on your tab, please use the "Tab Notes" section located below.