I Feel Just Fine(Bass Tab)

(/) Slide Up  (\) Slide Down  (h) Hammer On  (p) Pull Off  (b) Bend (r) Release (v) Vibrato


E|-----------
B|-----------
G|-----------
D|-----------
A|--2--------
E|-----2--0--



E|------------------------
B|------------------------
G|------------------------
D|------------------------
A|--2----------7----7--7--
E|-----2--0---------------



E|----------------------------
B|----------------------------
G|----------------------------
D|----------------------------
A|-2--2-2---------------------
E|--------2--2-2--0--0-0--0-0-



E|---------------------------------------------------------------------------------
B|---------------------------------------------------------------------------------
G|---------------------------------------------------------------------------------
D|---------------------------------------------------------------------------------
A|-4-4-4-4-4-4-4-4-4-4-4-4-6-6-7-12-12-12-12-12-12-12-12-12-12-12-12-12-12-12-11---
E|---------------------------------------------------------------------------------



E|--------------------------------------------------------------------------------
B|--------------------------------------------------------------------------------
G|--------------------------------------------------------------------------------
D|--------------------------------------------------6-7-9-9-9-9-9-9-9-9-9-9-9-9-9-
A|-9-9-9-9-9-9-9-9-9-9-9-9-9-9-9-11-7-7-7-7-7-7-7-7-------------------------------
E|--------------------------------------------------------------------------------
http://www.guitartabcreator.com
Guitar Tab Creator is intended to store guitar tab created through the tool. It currently does not support in-line text editing. Any text you place in here will be lost. If you need to comment on your tab, please use the "Tab Notes" section located below.