Don't Wait For It(Bass)

(/) Slide Up  (\) Slide Down  (h) Hammer On  (p) Pull Off  (b) Bend (r) Release (v) Vibrato

E|------------------------------------------------
B|------------------------------------------------
G|------------------------------------------------
D|------------------------------------------------
A|--------7--------10--------9--------7--------7--
E|--0--0-----0--0------0--0-----0--0-----0--0-----



E|----------------------------------------------------------
B|----------------------------------------------------------
G|----------------------------------------------------------
D|----------------------------------------------------------
A|--9--9--9--9--9--9--9--9--10--10--10--10--10--10--10--10--
E|----------------------------------------------------------



E|------------
B|------------
G|------------
D|------------
A|------------
E|--0------7--



E|-----
B|-----
G|-----
D|-----
A|-----
E|--0--



E|----------
B|----------
G|----------
D|----------
A|----------
E|--7----7--
http://www.guitartabcreator.com
Guitar Tab Creator is intended to store guitar tab created through the tool. It currently does not support in-line text editing. Any text you place in here will be lost. If you need to comment on your tab, please use the "Tab Notes" section located below.