Burden On Me (Bass)

(/) Slide Up  (\) Slide Down  (h) Hammer On  (p) Pull Off  (b) Bend (r) Release (v) Vibrato

E|-------------------------------------------------------------------
B|-------------------------------------------------------------------
G|-------------------------------------------------------------------
D|-------------------------------------------------------------------
A|--------5--5-5--------5--5-5--------5--5-5---5h7-5h7-5-------------
E|-5-7-7---------5-7-7---------5-7-7---------7-----------7-5-6-7-7---



E|-----------------------------------------------------
B|-----------------------------------------------------
G|-----------------------------------------------------
D|-----------------------------------------------------
A|-----------------------------------------7-----7-----
E|-7-------5-7-------5-7-------5-7-------0---0-0---0-0-



E|-----------------------------------------------------
B|-----------------------------------------------------
G|-----------------------------------------------------
D|-----------------------------------------------------
A|---------------------------5--5--5-5---7--7--7-5-----
E|-7--7--7-7-6-5--5--5-5-5-7-----------7-----------7-5-



E|---------------------------------------------------------------
B|---------------------------------------------------------------
G|---------------------------------------------------------------
D|---------------------------------------------------------------
A|---------------------------------------12-12-12-12-10-10-10-10-
E|-7-------5-7-------5-7-------5-7-------------------------------



E|---------------------------------------------------------------
B|---------------------------------------------------------------
G|---------------------------------------------------------------
D|---------------------------------------------------------------
A|---------------------------------------------------------------
E|-7-7-7-7-7-7-7-7-7-7-7-7-7-7-7-5-7-7-7-7-7-7-7-7-7-7-7-7-7-7-7-



E|-----------------------------------------------------------
B|-----------------------------------------------------------
G|-----------------------------------7----------9--7---------
D|------------------------------7h9----9-7-9---------9-7-9---
A|---------------------------5---------------7-------------7-
E|-7--7--7-7-6-5--5--5-5-5-7---------------------------------



E|-------------------------------------------------------
B|-------------------------------------------------------
G|-------------------------------------------------------
D|-------------------------------------------------------
A|---------------------------5--7/9-7-5-7-5-7--7/9-7-5-0-
E|-7--7--7-7-6-5--5--5-5-5-7-----------------------------



E|-------------------------------------------------------
B|-------------------------------------------------------
G|-------------------------------------------------------
D|-------------------------------------------------------
A|---------------------------5--7/9-7-5-7-5-7--7/9-7-5-9-
E|-7--7--7-7-6-5--5--5-5-5-7-----------------------------



E|--------------------------------------------------------------------------------------------------------------------------------
B|--------------------------------------------------------------------------------------------------------------------------------
G|--------------------------------------------------------------------------------------------------------------------------------
D|--------------------------------------------------------------------------------------------------------------------------------
A|----------5----5--5-------------5----5--5-------------5----5--5-----------------------------------------------------------------
E|--7--7---------------5--7--7---------------5--7--7---------------7--------------------7--7--7--7--7--7--7--7--7--7--7--7--7--7--
http://www.guitartabcreator.com
Guitar Tab Creator is intended to store guitar tab created through the tool. It currently does not support in-line text editing. Any text you place in here will be lost. If you need to comment on your tab, please use the "Tab Notes" section located below.