Wild Exotic

(/) Slide Up  (\) Slide Down  (h) Hammer On  (p) Pull Off  (b) Bend (r) Release (v) Vibrato

Stave 1:

E|--------------------------------------------------------------------15---------------------------------
B|------------------------------------------------------------15--14------15--14-------------------------
G|--------------------------------------------10--12--14--15----------------------15--14-----------------
D|------------------------------------11--12----------------------------------------------13-------------
A|----------------------7--10--8--11----------------------------------------------------------13--12-----
E|--5--6--10--9--6--10-----------------------------------------------------------------------------------

Stave 2:

E|----------------------------------------------21--19------------------16--17-------------------------
B|------------------------------------------------------20--19--16--17----------17--16-----------------
G|--------------------------14--15------18--20------------------------------------------19--18--16-----
D|----------11----------13----------17-----------------------------------------------------------------
A|------10------12--13---------------------------------------------------------------------------------
E|--11-------------------------------------------------------------------------------------------------

Stave 3:

E|------------------------------------------------------------------------------------8--5--------
B|------------------------------------------------------------------------------8--5--------8--5--
G|--------------------------------------------------------------------10--8--7--------------------
D|--18---------------------------------------------------------8--11------------------------------
A|------20--19--17--19------------------13---------------7--8-------------------------------------
E|----------------------18--16--13--12------12--9--6--5-------------------------------------------

http://www.guitartabcreator.com
Guitar Tab Creator is intended to store guitar tab created through the tool. It currently does not support in-line text editing. Any text you place in here will be lost. If you need to comment on your tab, please use the "Tab Notes" section located below.