Southern Rock Solo

(/) Slide Up  (\) Slide Down  (h) Hammer On  (p) Pull Off  (b) Bend (r) Release (v) Vibrato

Stave 1:

E|-----------------------------------------12-14-17----19----14-12----------------------------
B|--------------------------------------12----------17----17-------12-------------------------
G|---------------------------11p9h11-14-------------------------------14-11-------------------
D|-----7-9b11-7---------7-11------------------------------------------------11-9--------------
A|-7-9----------9-7h9p7----------------------------------------------------------9-7----------
E|-----------------------------------------------------------------------------------9b10-7-5-

Stave 2:

E|-------------------------------------------------------------------------------12-14-17-
B|----------------------------------------------14-------------------------12-14----------
G|-------------------------------------14----------14-------------------14----------------
D|-------------------12-14-13-12----14----13-14-------16-14----------14-------------------
A|---7------10-12b13-------------15-------------------------14-12-14----------------------
E|-5---8-10-------------------------------------------------------------------------------

http://www.guitartabcreator.com
Guitar Tab Creator is intended to store guitar tab created through the tool. It currently does not support in-line text editing. Any text you place in here will be lost. If you need to comment on your tab, please use the "Tab Notes" section located below.