Romanian Minor Metal Riffs

(/) Slide Up  (\) Slide Down  (h) Hammer On  (p) Pull Off  (b) Bend (r) Release (v) Vibrato

Stave 1:

E|----------------------------------------------------------------------
B|----------------------------------------------------------------------
G|----------------------------------------------------------------------
D|------------------13--15----------------------15----------------------
A|--------------11----------14--------------11------15--14--------------
E|--0--1--3--5------------------0--3--1--0------------------0--1--3--0--

Stave 2:

E|--------0-----------1-----------3-----------1--0--------
B|-----0-----0-----1-----1-----3-----3-----1--------0-----
G|--0-----------1-----------3-----------1--------------0--
D|--------------------------------------------------------
A|--------------------------------------------------------
E|--------------------------------------------------------

http://www.guitartabcreator.com
Guitar Tab Creator is intended to store guitar tab created through the tool. It currently does not support in-line text editing. Any text you place in here will be lost. If you need to comment on your tab, please use the "Tab Notes" section located below.