Open D Blues

(/) Slide Up  (\) Slide Down  (h) Hammer On  (p) Pull Off  (b) Bend (r) Release (v) Vibrato

Stave 1:

E|-------------------------------------------------------------------------------------
B|--------------------------------------------------------------------------17--19-----
G|--------------------------------------------------------13------15h16h17-------------
D|----------------------------------------------------12------14-----------------------
A|--------5--7b9--5--------------7--10b11--7--10--12-----------------------------------
E|--5--7-------------5--7--8--9-----------------------------------------------------0--

Stave 2:

E|----------------------------------------------------
B|----------------------------------------------------
G|----------------------------------------------------
D|--------------2b3--0--------------------0--3--2--0--
A|--------0--2----------2--0-----------3--------------
E|--0--2----------------------0--2--3-----------------

http://www.guitartabcreator.com
Guitar Tab Creator is intended to store guitar tab created through the tool. It currently does not support in-line text editing. Any text you place in here will be lost. If you need to comment on your tab, please use the "Tab Notes" section located below.