Metal Solo 2

(/) Slide Up  (\) Slide Down  (h) Hammer On  (p) Pull Off  (b) Bend (r) Release (v) Vibrato

Stave 1:

E|--------------------------------------------------------------------------11-----------------12-----
B|----------------------------------------------------------------------10------10---------10---------
G|-----------------------------5-----------------------8--9--10-----10--------------10--9-------------
D|--------------------3--6--3-----9--7--6-----------7------------9------------------------------------
A|--------------2--3-----------------------7--6--7----------------------------------------------------
E|--0--1--5--4----------------------------------------------------------------------------------------

Stave 2:

E|--13--16--13--12----------12--13--15--16--------------------------------------------------------------
B|------------------13--12------------------15--13--12--------------------------------------------------
G|------------------------------------------------------14--13------------------------------------------
D|--------------------------------------------------------------14--12--10--9--10-----------------------
A|---------------------------------------------------------------------------------12--11--8------------
E|--------------------------------------------------------------------------------------------10--8-----

Stave 3:

E|----------------------------------------19--20--19------------------------------------------------
B|------------------------15----------18--------------18--------------------------------------------
G|----------------13--14------16--17----------------------16----------------------------------------
D|--------10--12----------------------------------------------15--14----------------------------10--
A|-----8--------------------------------------------------------------14--12--8--7--8--------8------
E|--7----------------------------------------------------------------------------------8--7---------

Stave 4:

E|------------------------------------------------------------------------19--17---------------------
B|----------------------------------------------------------------16--17----------17--16-------------
G|----------------------------------------------------13--14--16--------------------------16--14-----
D|--13--14--------------------------------13--14--15-------------------------------------------------
A|----------12--11----------------11--12-------------------------------------------------------------
E|------------------7--8--11--12---------------------------------------------------------------------

Stave 5:

E|-------------------------------------------------------------------------------12--11------------
B|----------------------------------------------------------8--9-------------10----------10--9-----
G|--13---------------------------------------------5--------------10--9--10---------------------9--
D|------14--13------10--------------------------3-----6--7-----------------------------------------
A|--------------12------8--------3--2--------3-----------------------------------------------------
E|-------------------------5--4--------1--0--------------------------------------------------------

Stave 6:

E|----------------------------12--14--12--11--
B|------------------------12------------------
G|--7--5-----------9--11----------------------
D|--------7--6--9-----------------------------
A|--------------------------------------------
E|--------------------------------------------

http://www.guitartabcreator.com
Guitar Tab Creator is intended to store guitar tab created through the tool. It currently does not support in-line text editing. Any text you place in here will be lost. If you need to comment on your tab, please use the "Tab Notes" section located below.