Metal Solo

(/) Slide Up  (\) Slide Down  (h) Hammer On  (p) Pull Off  (b) Bend (r) Release (v) Vibrato

Stave 1:

E|----------------------------------------------------11--12--14--15--14--11h12p11-------------------
B|--10--11--13--14--13--11h13p11--10h11p10--10h11p10--------------------------------11h12p11---------
G|--------------------------------------------------------------------------------------------12b13--
D|---------------------------------------------------------------------------------------------------
A|---------------------------------------------------------------------------------------------------
E|---------------------------------------------------------------------------------------------------

Stave 2:

E|----------------------------------------------------------------------------------------------------
B|-----------------------------------------------------------------------5--5--6--5-------------------
G|--11--8----------------------------------------------------------------------------7--6-------------
D|---------11--10--7b8---------------------------------7--8--7--5--------------------------7b8--5--7--
A|----------------------9--7h9p7--6--------------4--5-------------------------------------------------
E|-----------------------------------6--5--5--6--------------------6--5-------------------------------

Stave 3:

E|--------------------------------------------------------------------------------------------------
B|--------------------------------------------------------------------------------------------------
G|--------------------------------------------------------------------------------------------------
D|--------------------------------------------------------------------------------------------------
A|--5--5--7--8--7--5h7b8p5-----------5--6--8--8b9--6--5h6-----4--7--8--7--5--4----------------------
E|--------------------------5--7--8------------------------5--------------------5b6--0--1--3--1--0--

Stave 4:

E|-----------------------------------------------------------------------------------------9--6--5--
B|--------------------------------------------------------------------------------5--6--8-----------
G|--------------------------------------------------------5--5--7--5--------5--6--------------------
D|--------------------------------------------------5--7--------------8--7--------------------------
A|-------0--1--4--1--0h1p0-----------4--7--8--7--5--------------------------------------------------
E|--1h3---------------------5--5--6-----------------------------------------------------------------

http://www.guitartabcreator.com
Guitar Tab Creator is intended to store guitar tab created through the tool. It currently does not support in-line text editing. Any text you place in here will be lost. If you need to comment on your tab, please use the "Tab Notes" section located below.