Exotic Blues

(/) Slide Up  (\) Slide Down  (h) Hammer On  (p) Pull Off  (b) Bend (r) Release (v) Vibrato

Stave 1:

E|-------------------------------------------5--8--8--5-----------------------------------------------
B|-------------------------------------8--5--------------5--8-----------------------------------------
G|--------------------------7--5--8b9--------------------------8--7--5--------------------------------
D|--------------------5--7----------------------------------------------5--7--------------------------
A|--------6--5--6--7----------------------------------------------------------6--5--7--6--5-----------
E|--5--8-------------------------------------------------------------------------------------5--8--9--

Stave 2:

E|---------------------------------------------------------------------------14--15--12--11--12--14--
B|-----------------------------------------------11--10--13--14------13--14--------------------------
G|---------------------------------8--9--12--11------------------12----------------------------------
D|---------------------------7--8--------------------------------------------------------------------
A|-----------------9--10--6--------------------------------------------------------------------------
E|--8--6--5--8--9------------------------------------------------------------------------------------

Stave 3:

E|--12--15--16--17--18--16--18--15--17--------------------------------------------------------------
B|--------------------------------------18--17--14--15----------------------------------------------
G|------------------------------------------------------17--14--12----------------------------------
D|------------------------------------------------------------------16--15--13--12--14--12----------
A|------------------------------------------------------------------------------------------14--12--
E|--------------------------------------------------------------------------------------------------

Stave 4:

E|------------------------------------------
B|------------------------------------------
G|--------------------------------------17--
D|------------------------------16--19------
A|--------------16--17--19--16--------------
E|--12--15--17------------------------------

http://www.guitartabcreator.com
Guitar Tab Creator is intended to store guitar tab created through the tool. It currently does not support in-line text editing. Any text you place in here will be lost. If you need to comment on your tab, please use the "Tab Notes" section located below.