Eastern Solo

(/) Slide Up  (\) Slide Down  (h) Hammer On  (p) Pull Off  (b) Bend (r) Release (v) Vibrato

Stave 1:

E|---------------------------------------------------------------------------------------------------
B|---------------------------------------------------------------------------------------------------
G|---------------------------------------------------------------------------------------------------
D|--------------------------8--14--12--11--12--8--------------------------------------------9--8--5--
A|---------------7--11--12------------------------12--11------------------------5--7--8--9-----------
E|--5--9--6--10-------------------------------------------10--9--6--5--5--6--9-----------------------

Stave 2:

E|-----------------------6--5--6--9--6--5--------------------------------------------------------------
B|--------------5--6--8--------------------6--5--------------------------------------------------------
G|--------6--7-----------------------------------7--6--------------------------------------------------
D|--7--8-----------------------------------------------8--------------------------------------8--------
A|--------------------------------------------------------8--7--4--7--4-----------7--4--7--8-----------
E|-----------------------------------------------------------------------5--6--5-----------------------

Stave 3:

E|--------------------------------------------15--17--------------------------------------------------
B|------------------------------------14--15----------18--17------------------------------------------
G|--------10--------------12--14--16--------------------------19--18----------------------------------
D|--7--9------11--12--14----------------------------------------------20--19--18----------------------
A|--------------------------------------------------------------------------------20--16--17--19--20--
E|----------------------------------------------------------------------------------------------------

http://www.guitartabcreator.com
Guitar Tab Creator is intended to store guitar tab created through the tool. It currently does not support in-line text editing. Any text you place in here will be lost. If you need to comment on your tab, please use the "Tab Notes" section located below.