Double Drop D Byzantine Metal Riffs

(/) Slide Up  (\) Slide Down  (h) Hammer On  (p) Pull Off  (b) Bend (r) Release (v) Vibrato

Stave 1:

E|---------------------------------------------------
B|---------------------------------------------------
G|--------------------4--5---------------------------
D|--------------2--3---------------------------------
A|--------2--3-----------------------2--5--3--2h3p2--
E|--2--3--------------------2--3--5------------------

Stave 2:

E|---------------10--14--13--15--10----------------------10--15--14--10---------------
B|--------9--10----------------------10--9--------9--10------------------10--9--9b10--
G|--8--9------------------------------------8--9--------------------------------------
D|------------------------------------------------------------------------------------
A|------------------------------------------------------------------------------------
E|------------------------------------------------------------------------------------

http://www.guitartabcreator.com
Guitar Tab Creator is intended to store guitar tab created through the tool. It currently does not support in-line text editing. Any text you place in here will be lost. If you need to comment on your tab, please use the "Tab Notes" section located below.