Desert Blues

(/) Slide Up  (\) Slide Down  (h) Hammer On  (p) Pull Off  (b) Bend (r) Release (v) Vibrato

Stave 1:

E|---------------------------------------------------------18--17--16----------------------------------
B|-------------------------------------------------18--17--------------15--14--------------------------
G|---------------------------------------------19------------------------------15--14--13--10----------
D|-----------------------------14--16------19--------------------------------------------------12--11--
A|--------------9--12------14----------16--------------------------------------------------------------
E|--5--9--7--9---------12------------------------------------------------------------------------------

Stave 2:

E|--------------------------------------------------------------------------------------------------------
B|--------------------------------------------------------------------------------------------------8-----
G|----------------------------------------------12--10-------------------------------------8--7--5--------
D|-----------------------------------8--11--12---------------------------------------5--7-----------------
A|--12--11--7--8---------------7--8---------------------10---------------5--7--6--5-----------------------
E|----------------10--9--5--6-------------------------------10--9--6--5-----------------------------------

Stave 3:

E|--8--5--------------------------------------------------------------------------------------------
B|--------8--5--------------------------------------------------------------------------------------
G|--------------7--5--8--7--5--------------------------------------------------7--8--5--------------
D|-----------------------------7--5--------------------------------------7--5-----------7--5--------
A|-----------------------------------7--6--7--5--6--------------5--7--6-----------------------5-----
E|--------------------------------------------------8--5--5--8-----------------------------------5--

http://www.guitartabcreator.com
Guitar Tab Creator is intended to store guitar tab created through the tool. It currently does not support in-line text editing. Any text you place in here will be lost. If you need to comment on your tab, please use the "Tab Notes" section located below.