Bebop/Auxiliary Blues Diminished Solo

(/) Slide Up  (\) Slide Down  (h) Hammer On  (p) Pull Off  (b) Bend (r) Release (v) Vibrato

Stave 1:

E|------------------------------------------------------13--12--11--16----------------------------------
B|--------------------------------------------------13------------------15--13--------------------------
G|-----------------------8--9------------8--10--13------------------------------13--10------------------
D|-----------------7--8--------10--8--7-------------------------------------------------10--8--7--------
A|--------6--7--8---------------------------------------------------------------------------------8-----
E|--5--6------------------------------------------------------------------------------------------------

Stave 2:

E|-----------------------------------------------------11--12--14--15------------------------------------
B|---------------------------------------------10--11------------------14--14--13--11--10----------------
G|---------------------------------------8--9----------------------------------------------9--11--12-----
D|---------------------------------7--8------------------------------------------------------------------
A|--6--7--9--10--------------6--7------------------------------------------------------------------------
E|---------------9--8--6--5------------------------------------------------------------------------------

http://www.guitartabcreator.com
Guitar Tab Creator is intended to store guitar tab created through the tool. It currently does not support in-line text editing. Any text you place in here will be lost. If you need to comment on your tab, please use the "Tab Notes" section located below.