Regret (verse)

(/) Slide Up  (\) Slide Down  (h) Hammer On  (p) Pull Off  (b) Bend (r) Release (v) Vibrato

Stave 1:

E|-----------0-----------------------0--------------------0-----------------------0-----------
B|-----3--------3-----3-----3-----------3-----3-----3--------3-----3-----3-----------3-----3--
G|-----------------------------4--------------------------------------------4-----------------
D|--------4--------4-----4--------4--------4-----------4--------4-----4--------4--------4-----
A|--2--------------------------------------------0--------------------------------------------
E|--------------------------------------------------------------------------------------------

Stave 2:

E|-----------0-----------------------0--------------------0-----------------------0-----------
B|-----3--------3-----3-----3-----------3-----3-----3--------3-----3-----3-----------3-----3--
G|-----------------------------4--------------------------------------------4-----------------
D|--------4--------4-----4--------4--------4-----------4--------4-----4--------4--------4-----
A|--------------------------------------------------------------------------------------------
E|--3--------------------------------------------0--------------------------------------------

http://www.guitartabcreator.com
Guitar Tab Creator is intended to store guitar tab created through the tool. It currently does not support in-line text editing. Any text you place in here will be lost. If you need to comment on your tab, please use the "Tab Notes" section located below.