Regret (Bridge + Chorus)

(/) Slide Up  (\) Slide Down  (h) Hammer On  (p) Pull Off  (b) Bend (r) Release (v) Vibrato

Stave 1:

E|-------0--3--
B|----3--2--3--
G|----4--2--0--
D|----4--2--0--
A|----2--0--2--
E|----------3--

Stave 2:

E|-----0--0--0--
B|--3--2--0--0--
G|--4--2--1--2--
D|--4--2--2--2--
A|--2--0--2--2--
E|--------0--0--

http://www.guitartabcreator.com
Guitar Tab Creator is intended to store guitar tab created through the tool. It currently does not support in-line text editing. Any text you place in here will be lost. If you need to comment on your tab, please use the "Tab Notes" section located below.