Oleo melody tab

(/) Slide Up  (\) Slide Down  (h) Hammer On  (p) Pull Off  (b) Bend (r) Release (v) Vibrato


E|------------------------------------------------------------------------------
B|------------------------------------------------------------------------------
G|--------5--------7--8--7--------7--8--7--5------------------------5-----------
D|--8--5-----8--5-----------8--5--------------8--5--6--7------8--5-----8--5--8--
A|------------------------------------------------------------------------------
E|------------------------------------------------------------------------------



E|-----------------------------------------------
B|-----------------------------------------------
G|--------8--7-----5-----------7-----7--5--------
D|--8--5--------8-----5--8--5--------------7-----
A|--------------------------------8-----------8--
E|-----------------------------------------------


Then repeats again and starts the solo... So just learn this at a ok tempo try to catch the phrasing out this video:

http://www.youtube.com/watch?v=JnUacPKi8bQ&sns=em

Enjoy!
Guitar Tab Creator is intended to store guitar tab created through the tool. It currently does not support in-line text editing. Any text you place in here will be lost. If you need to comment on your tab, please use the "Tab Notes" section located below.