Mayor scale run on 4ths

(/) Slide Up  (\) Slide Down  (h) Hammer On  (p) Pull Off  (b) Bend (r) Release (v) Vibrato


E|--------------------------------------------------------------------------------------
B|--------------------------------------------------------------------------------------
G|--------------------------------------------------------------------------------------
D|-----------------------------2-----4-----5--5--4--5--2--5-----5-----5-----5-----5-----
A|-----------2-----3-----5-----------------------------------5-----3-----2--------------
E|--3--5--3-----3-----3-----3-----3-----3--------------------------------------5-----3--



E|--------------------------------------------------------------------------------------
B|--------------------------------------------------------------------------------------
G|-----------------------------2-----4-----5--5--4--5--2--5-----5-----5-----5-----5-----
D|-----------2-----3-----5-----------------------------------5-----3-----2--------------
A|--3--5--3-----3-----3-----3-----3-----3--------------------------------------5-----3--
E|--------------------------------------------------------------------------------------



E|--------------------------------------------------------------------------------------
B|-----------------------------3-----5-----6--6--5--6--3--6-----6-----6-----6-----6-----
G|-----------2-----3-----5-----------------------------------5-----3-----2--------------
D|--3--5--3-----3-----3-----3-----3-----3--------------------------------------5-----3--
A|--------------------------------------------------------------------------------------
E|--------------------------------------------------------------------------------------



E|-----------------------------3-----5-----6--6--5--6--3--6-----6-----6-----6-----6-----
B|-----------3-----4-----6-----------------------------------6-----4-----3--------------
G|--3--5--3-----3-----3-----3-----3-----3--------------------------------------5-----3--
D|--------------------------------------------------------------------------------------
A|--------------------------------------------------------------------------------------
E|--------------------------------------------------------------------------------------



E|-----------------------------5-----7-----8--8--7--8--5--8-----8-----8-----8-----8-----
B|-----------5-----6-----8-----------------------------------8-----6-----5--------------
G|--5--7--5-----5-----5-----5-----5-----5--------------------------------------7-----5--
D|--------------------------------------------------------------------------------------
A|--------------------------------------------------------------------------------------
E|--------------------------------------------------------------------------------------



E|--------------------------------------------------------------------------------------
B|-----------------------------5-----7-----8--8--7--8--5--8-----8-----8-----8-----8-----
G|-----------4-----5-----7-----------------------------------7-----5-----4--------------
D|--5--7--5-----5-----5-----5-----5-----5--------------------------------------7-----5--
A|--------------------------------------------------------------------------------------
E|--------------------------------------------------------------------------------------



E|--------------------------------------------------------------------------------------
B|--------------------------------------------------------------------------------------
G|-----------------------------4-----6-----7--7--6--7--4--7-----7-----7-----7-----7-----
D|-----------4-----5-----7-----------------------------------7-----5-----4--------------
A|--5--7--5-----5-----5-----5-----5-----5--------------------------------------7-----5--
E|--------------------------------------------------------------------------------------



E|--------------------------------------------------------------------------------------
B|--------------------------------------------------------------------------------------
G|--------------------------------------------------------------------------------------
D|-----------------------------4-----6-----7--7--6--7--4--7-----7-----7-----7-----7-----
A|-----------4-----5-----7-----------------------------------7-----5-----4--------------
E|--5--7--5-----5-----5-----5-----5-----5--------------------------------------7-----5--



E|--------------------------------------------
B|--------------------------------------------
G|--------------------------------------------
D|-----------------------------6-----8-----9--
A|-----------6-----7-----9--------------------
E|--7--9--7-----7-----7-----7-----7-----7----- ETC....

And so on continue the runs until you can on your guitar and then go back using the same logic. Always when you finished one position, move up a whole tone when going up the fretboard and when going down the fretboard move down a whole tone.
Guitar Tab Creator is intended to store guitar tab created through the tool. It currently does not support in-line text editing. Any text you place in here will be lost. If you need to comment on your tab, please use the "Tab Notes" section located below.