Guitar finger exercise no.2

Guitar exercise no.2 

Pattern using your fingers in this order: 1 3 2 4. 1 being your index and 4 being your pinky.


E|--1--3--2--4--------------------------------------------------------------
B|--------------2--4--3--5--------------------------------------------------
G|--------------------------3--5--4--6--------------------------------------
D|--------------------------------------4--6--5--7--------------------------
A|--------------------------------------------------5--7--6--8--------------
E|--------------------------------------------------------------6--8--7--9--



E|----------------------------------------------------------------------------12--14--13--15--
B|------------------------------------------------------------11--13--12--14------------------
G|--------------------------------------------10--12--11--13----------------------------------
D|-----------------------------9--11--10--12--------------------------------------------------
A|---------------8--10--9--11-----------------------------------------------------------------
E|--7--9--8--10-------------------------------------------------------------------------------

Then go backwards like this:

E|--15--13--14--12----------------------------------------------------------------------------
B|------------------14--12--13--11------------------------------------------------------------
G|----------------------------------13--11--12--10--------------------------------------------
D|--------------------------------------------------12--10--11--9-----------------------------
A|-----------------------------------------------------------------11--9--10--8---------------
E|-------------------------------------------------------------------------------10--8--9--7--



E|--------------------------------------------------------------4--2--3--1--
B|--------------------------------------------------5--3--4--2--------------
G|--------------------------------------6--4--5--3--------------------------
D|--------------------------7--5--6--4--------------------------------------
A|--------------8--6--7--5--------------------------------------------------
E|--9--7--8--6--------------------------------------------------------------

Again, practice with metronome at a reasonable tempo (speed). Try starting with 50 bpm.
Guitar Tab Creator is intended to store guitar tab created through the tool. It currently does not support in-line text editing. Any text you place in here will be lost. If you need to comment on your tab, please use the "Tab Notes" section located below.