Finger exercise no.1

Guitar finger exercise no.1

E|--1--2--3--4--------------------------------------------------------------
B|--------------1--2--3--4--------------------------------------------------
G|--------------------------1--2--3--4--------------------------------------
D|--------------------------------------1--2--3--4--------------------------
A|--------------------------------------------------1--2--3--4--------------
E|--------------------------------------------------------------1--2--3--4--



E|--------------------------------------------------------------2--3--4--5--
B|--------------------------------------------------2--3--4--5--------------
G|--------------------------------------2--3--4--5--------------------------
D|--------------------------2--3--4--5--------------------------------------
A|--------------2--3--4--5--------------------------------------------------
E|--2--3--4--5--------------------------------------------------------------



E|--3--4--5--6--------------------------------------------------------------
B|--------------3--4--5--6--------------------------------------------------
G|--------------------------3--4--5--6--------------------------------------
D|--------------------------------------3--4--5--6--------------------------
A|--------------------------------------------------3--4--5--6--------------
E|--------------------------------------------------------------3--4--5--6--

and so on until you reach fret 12 with your pinky finger. Then go back like this:

E|--12--11--10--9-----------------------------------------------------------------------------
B|-----------------12--11--10--9--------------------------------------------------------------
G|--------------------------------12--11--10--9-----------------------------------------------
D|-----------------------------------------------12--11--10--9--------------------------------
A|--------------------------------------------------------------12--11--10--9-----------------
E|-----------------------------------------------------------------------------12--11--10--9--



E|------------------------------------------------------------------------11--10--9--8--
B|----------------------------------------------------------11--10--9--8----------------
G|--------------------------------------------11--10--9--8------------------------------
D|------------------------------11--10--9--8--------------------------------------------
A|----------------11--10--9--8----------------------------------------------------------
E|--11--10--9--8------------------------------------------------------------------------


Numbers represent the fret number and the lines represent the strings ( the top line is the 1 st string on our guitar) Going forward use the fingers 1 2 3 4 being 1 the index and 4 the pinky. On your way back use fingers 4 3 2 1.

Practice with your metronome at a tempo that's easy to play for you, start with 50 bpm (beats per minute)
Guitar Tab Creator is intended to store guitar tab created through the tool. It currently does not support in-line text editing. Any text you place in here will be lost. If you need to comment on your tab, please use the "Tab Notes" section located below.