One Look

(/) Slide Up  (\) Slide Down  (h) Hammer On  (p) Pull Off  (b) Bend (r) Release (v) Vibrato

E|-----------------------------------------------------------------------
B|-----------------------------------------------------------------------
G|------------------------------------------------------2--2------2------
D|--2------0--1--2----2------0--1--2----2------0--1--2--0--0------0------
A|--0--2v-------------0--2v-------------2--2v-----------------2v-----2v--
E|-----------------------------------------------------------------------



E|------------------------------------3--3--3----2--2--2------------------
B|-----------------------------------------------3--3--3------------------
G|-----------------------------------------------2--2--2------------------
D|--2------0--1--2----2------0--1--2----------------------2------0--1--2--
A|--0--2v-------------2--2v-----------2--2--2-------------0--2v-----------
E|------------------------------------3--3--3-----------------------------



E|-----
B|-----
G|-----
D|-----
A|--0--
E|-----



E|--------------------------------------------------------
B|--------------------------------------------------5--7--
G|--------------------------------------------------5--7--
D|--2-------2------2-------2------2-------2------2--5--7--
A|--0--2b3--0------0--2b3--0------0--2b3--0------0--3--5--
E|-------------2v-------------2v-------------2v-----------



E|--------------------------
B|--------------------------
G|--------------------------
D|--2--2--5--5--5--5--------
A|--0--0--3--3--2--2--1--1--
E|--------------------0--0--
http://www.guitartabcreator.com
Guitar Tab Creator is intended to store guitar tab created through the tool. It currently does not support in-line text editing. Any text you place in here will be lost. If you need to comment on your tab, please use the "Tab Notes" section located below.