Everything Solo

(/) Slide Up  (\) Slide Down  (h) Hammer On  (p) Pull Off  (b) Bend (r) Release (v) Vibrato


E|-----------------------------
B|-----------------------------
G|--2\4v--4--5--7--5--4--5/7v--
D|-----------------------------
A|-----------------------------
E|-----------------------------



E|---------------------------------
B|---------------------------------
G|--7/9\7--7--5\4--4\2--2--2--0--2h
D|---------------------------------
A|---------------------------------
E|---------------------------------



E|--------------------------------------------------------
B|----------------------------------------------8--8--8v--
G|--2--4\2--2/4--4--5--7\5--5v--5/7\5--4--5--7------------
D|--------------------------------------------------------
A|--------------------------------------------------------
E|--------------------------------------------------------
http://www.guitartabcreator.com
Guitar Tab Creator is intended to store guitar tab created through the tool. It currently does not support in-line text editing. Any text you place in here will be lost. If you need to comment on your tab, please use the "Tab Notes" section located below.