My Song

(/) Slide Up  (\) Slide Down  (h) Hammer On  (p) Pull Off  (b) Bend (r) Release (v) Vibrato

Stave 1:

E|-------------------------------------------------|-
B|-------0-----------0-----------0-----------------|-
G|-----2---2-------2---2-------0---0---------0-----|-
D|---3-------3---3-------3---2-------2-----2---2---|-
A|-5-----------0-----------3-------------3-------3-|-
E|-------------------------------------5-----------|-

Stave 2:

E|----------------------------------------------------------|-------------|-------------|-------|-
B|----------------------------------------------------------|-------------|-------------|-------|-
G|--------0-------0-------0-----------0-------0-------0-----|-------0-----|-------0-----|-0-----|-
D|------2-------0-------2---2-------2-------0-------2---2---|-----2---2---|-----0---0---|---0---|-
A|----3-------2-------2-------2---2-------2-------3-------3-|---3-------3-|---2-------2-|-----2-|-
E|--5-------3-------0-----------0-------3-------5-----------|-5-----------|-3-----------|-------|-

Stave 3:

E|----
B|----
G|----
D|----
A|----
E|--3-

http://www.guitartabcreator.com
Guitar Tab Creator is intended to store guitar tab created through the tool. It currently does not support in-line text editing. Any text you place in here will be lost. If you need to comment on your tab, please use the "Tab Notes" section located below.