Intro

(/) Slide Up  (\) Slide Down  (h) Hammer On  (p) Pull Off  (b) Bend (r) Release (v) Vibrato


E|--0--------0--------1--------1--------0--------0--------2--------2--------
B|-----2--------2--------2--------2--------3--------3--------3--------3-----
G|--------2--------2--------2--------2--------3--------3--------3--------3--
D|--------------------------------------------------------------------------
A|--------------------------------------------------------------------------
E|--------------------------------------------------------------------------



E|--0--------0--------3--------3--------0--------0--------4--------4--------
B|-----4--------4--------4--------4--------5--------5--------5--------5-----
G|--------4--------4--------4--------4--------5--------5--------5--------5--
D|--------------------------------------------------------------------------
A|--------------------------------------------------------------------------
E|--------------------------------------------------------------------------



E|--5--------4--------3--------2--------1-----------
B|-----5--------4--------3--------2--------1--------
G|--------5--------4--------3--------2--------1/12--
D|--------------------------------------------------
A|--------------------------------------------------
E|--------------------------------------------------
http://www.guitartabcreator.com
Guitar Tab Creator is intended to store guitar tab created through the tool. It currently does not support in-line text editing. Any text you place in here will be lost. If you need to comment on your tab, please use the "Tab Notes" section located below.