Blarg

(/) Slide Up  (\) Slide Down  (h) Hammer On  (p) Pull Off  (b) Bend (r) Release (v) Vibrato


E|--------------------------|--------------------------|-----------------8-------------|--------
B|--------------8-----------|--------------8-----------|--------------------9----------|--------
G|--------9--------9-----9--|--------9--------9-----9--|---------10------------10------|--------
D|-----9-----9--------9-----|-----9-----9--------9-----|-----10------10------------10--|--------
A|--7-----------------------|--7-----------------------|--8----------------------------|--8-----
E|--------------------------|--------------------------|-------------------------------|--------



E|--------------8-------------|---------------------------|---------------------------|--
B|-----------------9----------|--------------5h6p5--------|--------------5h6p5--------|--
G|------10------------10------|--------7---------------7--|--------7---------------7--|--
D|--10------10------------10--|-----7-----7---------7-----|-----7-----7---------7-----|--
A|----------------------------|--5------------------------|--5------------------------|--
E|----------------------------|---------------------------|---------------------------|--



E|--------------------------|-----------------------|---
B|--------------3-----------|-----------------------|---
G|--------5--------5--------|-----------------------|---
D|-----5-----5--------5-----|--7--------6--------5--|--r
A|--3--------------------3--|-----7--------6-----5--|---
E|--------------------------|--------5--------4--3--|---
http://www.guitartabcreator.com
Guitar Tab Creator is intended to store guitar tab created through the tool. It currently does not support in-line text editing. Any text you place in here will be lost. If you need to comment on your tab, please use the "Tab Notes" section located below.