Dream Theater - The Count of Tuscany

(/) Slide Up  (\) Slide Down  (h) Hammer On  (p) Pull Off  (b) Bend (r) Release (v) Vibrato
E|-----------------|-----------------|-----------------|-----------------|--
B|--------0--------|--------0--------|--------0--------|--------0--------|--
G|-----------3-----|-----------3-----|-----------3-----|-----------3-----|--
D|-----4--------4--|-----4--------4--|-----4--------4--|-----4--------4--|--
A|-----------------|-----------------|--2--------------|--2--------------|--
E|--4--------------|--4--------------|-----------------|-----------------|--



E|-----------------|-----------------|-----------------|-----------------|--
B|--------0--------|--------0--------|--------0--------|--------0--------|--
G|-----------3-----|-----------3-----|-----------3-----|-----------3-----|--
D|-----4--------4--|-----4--------4--|-----4--------4--|-----4--------4--|--
A|-----------------|-----------------|-----------------|-----------------|--
E|--2--------------|--2--------------|--0--------------|--0--------------|--



E|-----------------|-----------------|-----------------|-----------0--------|--
B|--------0--------|--------0--------|-----------------|--------------0-----|--
G|-----------3-----|-----------3-----|--------6--------|--------8--------8--|--
D|-----4--------4--|-----4--------4--|-----------------|--------------------|--
A|-----------------|-----------------|-----9-----9-----|-----9--------------|--
E|--4--------------|--4--------------|--6-----------6--|--7-----------------|--



E|-----------------|--------------------|-----------------|--------------------|--
B|--------0--------|--------0--------0--|--------0--------|--------0--------0--|--
G|-----------3-----|--------------------|-----------3-----|--------------------|--
D|-----4--------4--|-----4--------4-----|-----4--------4--|-----4--------4-----|--
A|-----------------|--------------------|-----------------|--------------------|--
E|--0--------------|--0--------2--------|--0--------------|--0--------2--------|--



E|--
B|--
G|--
D|--
A|--
E|--
http://www.guitartabcreator.com
Guitar Tab Creator is intended to store guitar tab created through the tool. It currently does not support in-line text editing. Any text you place in here will be lost. If you need to comment on your tab, please use the "Tab Notes" section located below.