Dream Theater - On The Back of Angels

(/) Slide Up  (\) Slide Down  (h) Hammer On  (p) Pull Off  (b) Bend (r) Release (v) Vibrato


E|---------------0-----------------------0--|---------------0------------
B|------------8-----8-----------------8-----|------------8-----8---------
G|--------11-----------11---------11--------|--------11-----------11-----
D|-----9-------------------9--10------------|-----9-------------------9--
A|------------------------------------------|----------------------------
E|--0---------------------------------------|--0-------------------------



E|----------------------0------------|------------------------------------0--|--
B|---------0---------0---------------|---------0----------------------10-----|--
G|------0---------0--------7---------|-----11---------------------10---------|--
D|--12--------11--------------10--9--|--8---------9--------10--8-------------|--
A|-----------------------------------|---------------------------------------|--
E|-----------------------------------|---------------------------------------|--



E|---------------0-----------------------0--|--
B|------------8-----8-----------------8-----|--
G|--------11-----------11---------11--------|--
D|-----9-------------------9--10------------|--
A|------------------------------------------|--
E|--0---------------------------------------|--
http://www.guitartabcreator.com
Guitar Tab Creator is intended to store guitar tab created through the tool. It currently does not support in-line text editing. Any text you place in here will be lost. If you need to comment on your tab, please use the "Tab Notes" section located below.