inicident

(/) Slide Up  (\) Slide Down  (h) Hammer On  (p) Pull Off  (b) Bend (r) Release (v) Vibrato


E|-------------------------------------------------------------------------------------------
B|--15--12--13------12--------------------------------------12--12v--------------10/12--12v--
G|--------------14------12--14--11--12------11--12--14--14-----------14--12--14--------------
D|--------------------------------------14---------------------------------------------------
A|-------------------------------------------------------------------------------------------
E|-------------------------------------------------------------------------------------------



E|-----------------5--7--8--10--12--14--15--17--17v------15--17b19--15--14--15h14--12--14------12-----------------------------------
B|--------5--7--8------------------------------------17------------------------------------15------15--13--12v--13--13--12------12--
G|--6--7--------------------------------------------------------------------------------------------------------------------14------
D|----------------------------------------------------------------------------------------------------------------------------------
A|----------------------------------------------------------------------------------------------------------------------------------
E|----------------------------------------------------------------------------------------------------------------------------------



E|----------------------------------------------------------------------------------------------15--12------------------------------------
B|--13--13--12------12--13--13--12------12--13--13--12------12--13--15--15v--13------13--15b17----------15--13--12--13--12h13-------------
G|--------------14------------------14------------------14-----------------------14--------------------------------------------14--14b16--
D|----------------------------------------------------------------------------------------------------------------------------------------
A|----------------------------------------------------------------------------------------------------------------------------------------
E|----------------------------------------------------------------------------------------------------------------------------------------



E|--
B|--
G|--
D|--
A|--
E|--
http://www.guitartabcreator.com
Guitar Tab Creator is intended to store guitar tab created through the tool. It currently does not support in-line text editing. Any text you place in here will be lost. If you need to comment on your tab, please use the "Tab Notes" section located below.