RANDOM SONG IDEAS 1

(/) Slide Up  (\) Slide Down  (h) Hammer On  (p) Pull Off  (b) Bend (r) Release (v) Vibrato
E|-----------0-----------------0-----------------0-----------------0--------
B|--------1-----1-----------1-----1-----------1-----1-----------1-----1-----
G|-----2-----------2-----2-----------2-----2-----------2-----2--------------
D|-----------------------------------------------------------------------3--
A|--0-----------------------------------------------------------------------
E|--------------------3-----------------1-----------------3-----------------



E|------------------------------------------------------------------------------
B|-----1p0----------------1p0--------------1p0--------------1p0-----------------
G|----------2------------------2----------------2----------------2--------------
D|------------------------------------------------------------------------------
A|--0---------------------------------------------------------------------0-----
E|---------------------3----------------1----------------3----------------------
http://www.guitartabcreator.com
Guitar Tab Creator is intended to store guitar tab created through the tool. It currently does not support in-line text editing. Any text you place in here will be lost. If you need to comment on your tab, please use the "Tab Notes" section located below.