First Song

(/) Slide Up  (\) Slide Down  (h) Hammer On  (p) Pull Off  (b) Bend (r) Release (v) Vibrato


E|---------------------------------------------------------------------------------
B|---------------------------------------------------------------------------------
G|---------------------------------------------------------------------------------
D|---------------------------------------------------------------------------------
A|----------3/5--3/5--3h5p3---------------------------3/5--3/5--3h5p3--------------
E|--0----0-------------------6--5--3--5--3----0----0-------------------6--5--3--5--



E|--------------------------------------------------------------------------------
B|--------------------------------------------------------------------------------
G|--------------------------------------------------------------------------------
D|--------------------------------------------------------------------------------
A|----------3/5--3/5--3h5p3-------------------------------------------------------
E|--0----0-------------------6--5--3--5--3----1--0--0--0--1--0--1--6--5--3--1-----



E|----------------------------------------------------------------------------------
B|----------------------------------------------------------------------------------
G|----------------------------------------------------------------------------------
D|----------------------------------------------------------------------------------
A|----------3/5--3/5---------------------------------3/5--3/6-----------------------
E|--0----0------------0--0--0--0--0--0--0----0----0------------1--1--1--1--1--1--1--



E|----------------------------------------------------------
B|----------------------------------------------------------
G|----------------------------------------------------------
D|----------------------------------------------------------
A|----------------------------------------------------------
E|--0--1--1--3--1--1--0--1--1--3--1--1--6--5--3--1--3-------



E|-----------------------------------------------------
B|-----------------------------------------------------
G|-----------------------------------------------------
D|-----------------------------------------------------
A|-----------------------------------------1--1--1--1--
E|--0--1--1--3--1--1--0--1--1--3--1--1--0--1--1--1--1--
http://www.guitartabcreator.com
Guitar Tab Creator is intended to store guitar tab created through the tool. It currently does not support in-line text editing. Any text you place in here will be lost. If you need to comment on your tab, please use the "Tab Notes" section located below.