A Tragedy Quite Becoming

(/) Slide Up  (\) Slide Down  (h) Hammer On  (p) Pull Off  (b) Bend (r) Release (v) Vibrato

Intro

G|------------------------------
D|------------------------------
A|------------------------------
D|-0--000---000---0---000000----

Intro pt 2

G|-----------------------
D|-15-12-14-10-12-12-7-7~
A|-----------------------
D|-----------------------

Chorus pt 1

G|----------------------------------------------
D|----------------------------------------------
A|----------------------------------------------
D|-0--00-87--0-0-0-8757--0-0-0-87--5--333--555--

Chorus pt 2

G|------------------------------------------------
D|------------------------------------------------
A|------------------------------------------------
D|-0--00-87--0-0-0-8757--0-0-0-87-5--3530--1310---

Chorus pt 3

G|--------------------------------------------------
D|--------------------------------------------------
A|--------------------------------------------------
D|-0--00-87--0-0-0-8757--0-0-0-87-5--333333--111111-

Bridge

G|-------------------------------------------------
D|-----8-7-8-7-----8-7-8-7-----8-7-8-7-----5-5-6-5-
A|---8-----------8-----------8-----------5---------
D|-8-----------8-----------8-----------5-----------

Breakdown

G|-------------------
D|-------------------
A|-------------------
D|-00000000-00-0-0-0-

Interlude

G|--------
D|--------
A|--------
D|-23320~-
http://www.guitartabcreator.com
Guitar Tab Creator is intended to store guitar tab created through the tool. It currently does not support in-line text editing. Any text you place in here will be lost. If you need to comment on your tab, please use the "Tab Notes" section located below.