Forever Isn't Close Enough

(/) Slide Up  (\) Slide Down  (h) Hammer On  (p) Pull Off  (b) Bend (r) Release (v) Vibrato

Intro

G|-------------------------------------
D|------------------10-8-7-------------
A|-----7-8-10-8-7-8--------10-8-10-8-7-
D|-7-9---------------------------------


Exit Intro

G|----------------
D|----------------
A|----------------
D|-7-7-9-10-9-7-9-


Chorus

G|----------------------------------------------------
D|----------------------------------------------------
A|----------------------------------------------------
D|-8-8---12-12---10-10-10-10---8-8---12-12-10-12-10-8-



G|-------------------------------------
D|-------------------------------------
A|-----2-2-----------------2-2---------
D|-3-3-----5---5-5-5---3-3-----5-9-7-5-


Verse

G|---------------------------------------------------------
D|---------7-9-7---------7-9-7---------3-5-3---------3-5-3-
A|---7---7---------7---7---------3---3---------3---3-------
D|-7---7---------7---7---------3---3---------3---3---------

Bridge

G|-------------------------------------------------------------------
D|-------------------------------------------------------------------
A|-------------------------------------------------------------------
D|-7-7-7---7-7-8---7-7-7---7-7-3-5---7-7-7---7-7-8---7-7-7---7-7-3-5-

Bridge pt2

G|-------------------------------------------------------------------------------
D|-------------------------------------------------------------------------------
A|-------------------------------------------------------------------------------
D|-12-12-12-12-12-12-12-12---14-14-14-14-14-14-14-14---15-15-15-15---10-10-10-10-

Bridge End

G|-----------------------
D|-----------------------
A|-----------------------
D|-10-10-10-10-9-9-9-9-7-

Outro

G|---------------------------------------------------------------
D|--7~-7~-7~-7--9--10/14--12~-14--12~-14--12~-15--14--12--10--7~-
A|---------------------------------------------------------------
D|---------------------------------------------------------------
http://www.guitartabcreator.com
Guitar Tab Creator is intended to store guitar tab created through the tool. It currently does not support in-line text editing. Any text you place in here will be lost. If you need to comment on your tab, please use the "Tab Notes" section located below.