Expose Me

(/) Slide Up  (\) Slide Down  (h) Hammer On  (p) Pull Off  (b) Bend (r) Release (v) Vibrato

Intro

G|---------------------------------------------------
D|---------------------------------------------------
A|---------------------------------------------------
D|-0-0-3-0-0-2-0-0-5-0-0-3-0-0-7-0-0-5-0-0-8-7-5-3-5-

Pre Verse

G|---------------------------------------------------------------------------------
D|---------------------------------------------------------------------------------
A|---------------------------------------------------------------------------------
D|-5-5-5-5-5-5-5-5-5-5-5-5-5-5-5-5-3-3-3-3-3-3-3-3-8-8-8-8-8-8-8-8-5-5-5-5-5-5-5-5-

Verse

G|-----------------------------------------------------
D|-----------------------------------------------------
A|---5-7-5-7-5---5-7-5-7-5---3-5-3-5-3---8-8/12-10-8-7-
E|-5-----------5-----------3-----------8---------------

Pre Chorus

G|--------------------
D|--------------------
A|-----5--7--5--7--5--
E|--5-----------------

Pre Chorus pt 2

G|---------------------------------
D|---------------------------------
A|---------------------------------
D|-5-5-5-5-5-5-5-5-3-3-3-3-3-3-3-3-

Chorus

G|-------------------------------------------------------
D|-------------------------------------------------------
A|-------------------------------------------------------
D|-3-3-3-5-5-5-3-3-3-5-5-5-3-3-3-3-3-3-5-5-5-3-3-3-5-5-5-



G|---------------------------------
D|---------------------------------
A|---------------------------------
D|-8-8-8-8-8-8-8-8-3-3-3-3-3-3-3-3-



G|-------------------------------------------------------
D|-------------------------------------------------------
A|-------------------------------------------------------
D|-3-3-3-5-5-5-3-3-3-5-5-5-3-3-3-3-3-3-5-5-5-3-3-3-5-5-5-



G|---------------------------------
D|---------------------------------
A|---------------------------------
D|-8-8-8-8-8-8-8-8-3-3-3-3-3-3-3-3-



G|-------------------------------------------------------------------------------------
D|-------------------------------------------------------------------------------------
A|-------------------------------------------------------------------------------------
D|-3-3-3-5-5-5-3-3-3-5-5-5-7-5-3-3-3-5-5-5-3-3-3-5-5-5-7-5-3-3-3-5-5-5-3-3-3-5-5-5-7-5-


G|-------------------------
D|-------------------------
A|-------------------------
D|-3-3-3-5-5-5-3-3-3-5-5-5-

Verse 2

G|-----------------------------------------
D|-----------------------------------------
A|---5-7-5-7-5---3-5-3-5-3---8-8/12-10-8-7-
D|-5-----------3-----------8---------------



G|-----------------------------------------------------
D|-----------------------------------------------------
A|---5-7-5-7-5---5-7-5-7-5---3-5-3-5-3---8-8/12-10-8-7-
D|-5-----------5-----------3-----------8---------------

G|-----------------------------------------------------
D|-----------------------------------------------------
A|---5-7-5-7-5---5-7-5-7-5---3-5-3-5-3---8-8/12-10-8-7-
D|-5-----------5-----------3-----------8---------------

Pre Chorus

G|--------------------
D|--------------------
A|-----5--7--5--7--5--
D|--5-----------------

Chorus

G|---------------------------------
D|---------------------------------
A|---------------------------------
D|-5-5-5-5-5-5-5-5-3-3-3-3-3-3-3-3-


G|-------------------------------------------------------
D|-------------------------------------------------------
A|-------------------------------------------------------
D|-3-3-3-5-5-5-3-3-3-5-5-5-3-3-3-3-3-3-5-5-5-3-3-3-5-5-5-


G|---------------------------------
D|---------------------------------
A|---------------------------------
D|-8-8-8-8-8-8-8-8-3-3-3-3-3-3-3-3-


G|-------------------------------------------------------
D|-------------------------------------------------------
A|-------------------------------------------------------
D|-3-3-3-5-5-5-3-3-3-5-5-5-3-3-3-3-3-3-5-5-5-3-3-3-5-5-5-


G|---------------------------------
D|---------------------------------
A|---------------------------------
D|-8-8-8-8-8-8-8-8-3-3-3-3-3-3-3-3-


G|-------------------------------------------------------------------------------------
D|-------------------------------------------------------------------------------------
A|-------------------------------------------------------------------------------------
D|-3-3-3-5-5-5-3-3-3-5-5-5-7-5-3-3-3-5-5-5-3-3-3-5-5-5-7-5-3-3-3-5-5-5-3-3-3-5-5-5-7-5-


G|-------------------------
D|-------------------------
A|-------------------------
D|-3-3-3-5-5-5-3-3-3-5-5-5-

Outro

G|----------------------------
D|----------------------------
A|----------------------------
D|--5--5--3--3--5--5--10--10--




http://www.guitartabcreator.com
Guitar Tab Creator is intended to store guitar tab created through the tool. It currently does not support in-line text editing. Any text you place in here will be lost. If you need to comment on your tab, please use the "Tab Notes" section located below.