After The Fall

(/) Slide Up  (\) Slide Down  (h) Hammer On  (p) Pull Off  (b) Bend (r) Release (v) Vibrato

Verse

G|---------------------------------------------------
D|-----3-5-5/7-----3-5-5/7-----5-7-7/10-----5-7-7/10-
A|-3-5---------3-5---------5-7----------5-7----------
D|---------------------------------------------------

Chorus

G|----------------------------------------------------------
D|----------------------------------------------------------
A|----------------------------------------------------------
D|-0-0-0-0-0-0-8-8-8-8-8-8-3-3-3-3-3-3-10-10-10-10-12-14-12-

Bridge pt 1

G|-------------------------------
D|-------------------------------
A|-------------------------------
D|-15-15-15-10-10-10-10-12-12-12-


Bridge pt 2 End 4th time

G|-------------------------------/----------------
D|-------------------------------/----------------
A|-------------------------------/----------------
D|-10-10-10-10-10-10-10-12-12-12-/---12-12-12-0---

Solo

G|--------------------------------------------------------------
D|----------12--14--15--14--12----------------------------------
A|--12--14----------------------14--12--14--12--10--12--12--12--
D|--------------------------------------------------------------
http://www.guitartabcreator.comD
Guitar Tab Creator is intended to store guitar tab created through the tool. It currently does not support in-line text editing. Any text you place in here will be lost. If you need to comment on your tab, please use the "Tab Notes" section located below.