Eflin Lied

(/) Slide Up  (\) Slide Down  (h) Hammer On  (p) Pull Off  (b) Bend (r) Release (v) Vibrato


E|-----9-------------
B|--7-----9--10--10--
G|-------------------
D|-------------------
A|-------------------
E|-------------------



E|-----9---------7------2--
B|--7-----9--10-----10-----
G|-------------------------
D|-------------------------
A|-------------------------
E|-------------------------



E|--4--0--------
B|--------3--5--
G|--------------
D|--------------
A|--------------
E|--------------



E|--------------------
B|--7--------------7--
G|-----7--6--7--9-----
D|--------------------
A|--------------------
E|--------------------



E|---------7----------9--
B|--9--10-----10--10-----
G|-----------------------
D|-----------------------
A|-----------------------
E|-----------------------
http://www.guitartabcreator.com
Guitar Tab Creator is intended to store guitar tab created through the tool. It currently does not support in-line text editing. Any text you place in here will be lost. If you need to comment on your tab, please use the "Tab Notes" section located below.