Light Up the Sky

(/) Slide Up  (\) Slide Down  (h) Hammer On  (p) Pull Off  (b) Bend (r) Release (v) Vibrato
E|-----------------------------------------|----------------------------------------
B|-----------------------------------------|----------------------------------------
G|-----------------------------------------|----------------------------------------
D|-----------------------------------------|----------------------------------------
A|-----------------------------------------|-----------------------------------0h2--
E|--2h4--4------2h4--4--------4----2h4--4--|--2h4--4------2h4--4------4--2--2-------



E|--------------------------------------------|------------------------------------------
B|--------------------------------------------|------------------------------------------
G|--------------------------------------------|------------------------------------------
D|--2--4--4----2--4--4--4----4----2--2--4--4--|--2--4--4----2--4--4--4----4--2--7--9-----
A|--2--4--4----2--4--4--4----4----2--2--4--4--|--2--4--4----2--4--4--4----4--2--7--9-----
E|--2--4--4----2--4--4--4----4----2--2--4--4--|--2--4--4----2--4--4--4----4--2--7--9-----



E|--------------------------------------------|---------------------------------------
B|--------------------------------------------|---------------------------------------
G|--------------------------------------------|---------------------------------------
D|--2--4--4----2--4--4--4----4----2--2--4--4--|--2--4--4----2--4--4--4----4--2--9--7--
A|--2--4--4----2--4--4--4----4----2--2--4--4--|--2--4--4----2--4--4--4----4--2--9--7--
E|--2--4--4----2--4--4--4----4----2--2--4--4--|--2--4--4----2--4--4--4----4--2--9--7--



E|--------------------------------------------|-----------------------------------
B|--------------------------------------------|-------------2---------------------
G|--------2---------------------2-------------|--------2-------4p2-------------2--
D|--2--4-------4--2--4----2--4-----2--2----2--|--2--4---------------2----2--4-----
A|--------------------------------------------|-----------------------------------
E|--------------------------------------------|-----------------------------------



E|-------------------------------------------------
B|-------------------------------------------------
G|-------------------------------------------------
D|--4--4--4--4--4--4--4--4-------------------------
A|--4--4--4--4--4--4--4--4-------------------------
E|--4--4--4--4--4--4--4--4--------------7--7--7--9\



E|-------------------------------------------------------
B|-------------------------------------------------------
G|-------------------------------------------------------
D|--2--4--4--2--4--2--4----------2--4--4--2--4--2--4-----
A|-----------------------0--2-------------------------0--
E|-------------------------------------------------------



E|----------------------------------------------------
B|----------------------------------------------------
G|----------------------------------------------2-----
D|--2--4--4--2--4--2--4-------------------------------
A|-----------------------0--2----0--2--0--2--0--------
E|----------------------------------------------------



E|-------------------------------------------------------
B|-------------------------------------------------------
G|-----------------------2--4-------------------------2--
D|--2--4--4--2--4--2--4--2--4----2--4--4--2--4--2--4--2--
A|--2--4--4--2--4--2--4--0--2----2--4--4--2--4--2--4--0--
E|--2--4--4--2--4--2--4----------2--4--4--2--4--2--4-----



E|-----------------------------------------
B|-----------------------------------------
G|-----------------------2--4--2--4--2--2--
D|--2--4--4--2--4--2--4--2--4--2--4--2--2--
A|--2--4--4--2--4--2--4--0--2--0--2--0--0--
E|--2--4--4--2--4--2--4--------------------



E|--------------------------------------------
B|--------------------------------------------
G|--------------4------------------4----------
D|--7--4--2--0--4------7--4--2--0--4----------
A|--7--4--2--0--2------7--4--2--0--2----------
E|--7--4--2--0---------7--4--2--0-------------



E|----------------------------------
B|----------------------------------
G|--------------4----4--------------
D|--7--4--2--0--4----4--0--2--4--0--
A|--7--4--2--0--2----2--0--2--4--0--
E|--7--4--2--0----------0--2--4--0--
http://www.guitartabcreator.com
Guitar Tab Creator is intended to store guitar tab created through the tool. It currently does not support in-line text editing. Any text you place in here will be lost. If you need to comment on your tab, please use the "Tab Notes" section located below.