No.3 by mauro giuliani

(/) Slide Up  (\) Slide Down  (h) Hammer On  (p) Pull Off  (b) Bend (r) Release (v) Vibrato


E|-----5--3--2-----3--2--0-----2--0--------------------------2-----------3--2--5--2--------------
B|-----7--5--3-----5--3--2-----------3-----3--2--0--------3-----------2--------------3--2--------
G|-----------------------------2--0--------4--2--0-----2-----------2-----------------------2--0--
D|--0-----------------------0--------4-----------------4-----------2--------0--------------------
A|--------------0-----------------------------------0-----------0--------------------------------
E|--------------------------------------3--------------------------------------------------------



E|--5--3--2-----
B|--7--5--3-----
G|--------------
D|-----------0--
A|--------------
E|--------------
http://www.guitartabcreator.com
Guitar Tab Creator is intended to store guitar tab created through the tool. It currently does not support in-line text editing. Any text you place in here will be lost. If you need to comment on your tab, please use the "Tab Notes" section located below.