DAR's RIffs34

(/) Slide Up  (\) Slide Down  (h) Hammer On  (p) Pull Off  (b) Bend (r) Release (v) Vibrato


E|-------------------------------------------------------------10--------------------------
B|-----5-----5/7--5-----7-----7/10--9------------------------------------------------------
G|--4-----4----------6-----6-----------9--9--9--9--11--11--11------9--9--9--11--11--11--7--
D|-----------------------------------------------------------------------------------------
A|-----------------------------------------------------------------------------------------
E|-----------------------------------------------------------------------------------------



E|--0----------------0----------------------------------------------------------------------
B|--0----------------0--------------------0-------------------------------------------------
G|--1----------------2--------------------0-------------------------------------------------
D|--2----------------2--------------------2------------------------4------------------------
A|--2----------------0--------------------3------------------------5------------------------
E|--0-------------------------------------3------------------------5------------------------
http://www.guitartabcreator.com
Guitar Tab Creator is intended to store guitar tab created through the tool. It currently does not support in-line text editing. Any text you place in here will be lost. If you need to comment on your tab, please use the "Tab Notes" section located below.