Remedy2

DROP D TUNING


E|-------------------------------------------------------------------------------
B|-------------------------------------------------------------------------------
G|--------11-----10-----------11-----10-----------10-----8-----------5-----6-----
D|-----8------8------8-----8------8------8-----8------8-----8-----8-----8--------
A|--8-------------------8-------------------8------------------8--------------8--
D|-------------------------------------------------------------------------------



E|----------------------------------------------------------------------------
B|--------11-----9-----------7-----9-----------9-----7------------------------
G|-----6------6-----6-----6-----6-----------5-----5--------10--8--6-----------
D|--8------------------8--------------8--7--------------7------------8--7--8--
A|----------------------------------------------------------------------------
D|----------------------------------------------------------------------------
Guitar Tab Creator is intended to store guitar tab created through the tool. It currently does not support in-line text editing. Any text you place in here will be lost. If you need to comment on your tab, please use the "Tab Notes" section located below.